INXS – Kick bass tab

Groovy bassline, no tabs but there is this helpful video: INXS – Kick ((BASS COVER))

Let the reverse engineering commence!

The main riff isn’t right yet, but it’s a place to start.

Intro
   Gb                A                 E                 B
G|-----------------|-----------------|-----------------|-----------------|
D|-----------------|-----------------|-----------------|-----------------|
A|-----------------|-----------------|-----------------|-2---2-2---2-2-2-|
E|-2---2-2---2-2-2-|-5---5-5---5-5-5-|-0---0-0---0-0-0-|-----------------|
   1 & 2 & 3 & 4 &   1 & 2 & 3 & 4 &   1 & 2 & 3 & 4 &   1 & 2 & 3 & 4 &  

Main riff
   
G|-----------------|-----------------|-----------------|-----------------|
D|-----------------|-----------------|-4-2-24-04-2-2---|-----------------|
A|-4-2-24-04-----2-|-2----2-02-----2-|----4-------4-42-|-4-2-24-04-----2-|
E|----4------2-4---|---424-----2-4---|-----------------|----4------2-4---|
   1 & 2 & 3 & 4 &   1 & 2 & 3 & 4 &   1 & 2 & 3 & 4 &   1 & 2 & 3 & 4 &  


Chorus
   Gb                A                 E                 B
G|-----------------|-----------------|-----------------|-----------------|
D|-----------------|-----------------|-----------------|-----------------|
A|-----------------|-----------------|-----------------|-2---2---2-2---2-|
E|-2---2---2-2---2-|-5---5---5-5---5-|-0---0---0-0---0-|-----------------|
   1 & 2 & 3 & 4 &   1 & 2 & 3 & 4 &   1 & 2 & 3 & 4 &   1 & 2 & 3 & 4 &  


Saxophone solo
   Db  A
G|-----------------|-----------------|-----------------|-----------------|
D|-----------------|-----------------|-----------------|-----------------|
A|-4-\-0-----------|-----------------|-----------------|-----------------|
E|-----------------|-----------------|-----------------|-----------------|
   1 & 2 & 3 & 4 &   1 & 2 & 3 & 4 &   1 & 2 & 3 & 4 &   1 & 2 & 3 & 4 &  
Advertisements

Published by

Ben Boyle

Web developer, Dad, gamer, mentor, animator, universal design advocate, fan of gadgets and sunshine!

Leave a Reply

Fill in your details below or click an icon to log in:

WordPress.com Logo

You are commenting using your WordPress.com account. Log Out / Change )

Twitter picture

You are commenting using your Twitter account. Log Out / Change )

Facebook photo

You are commenting using your Facebook account. Log Out / Change )

Google+ photo

You are commenting using your Google+ account. Log Out / Change )

Connecting to %s