This ain’t no place for no hero

Gearbox have followed up Borderlands with an awesome sequel—Borderlands 2.

These role playing shooters (RPS) are set on Pandora—a planet pretty much on the outer rim of civilisation (that’s probably why it’s called Borderlands right?). If you’re thinking about the awesome space western Firefly, you’re thinking the right kind of setting.

A setting like this demands an awesome soundtrack, with an especially awesome introduction track. The original Borderlands brought us Ain’t No Rest for the Wicked by Cage the Elephant (Borderlands fans should check out this fan comic). Borderlands 2 has done it again, with Short Change Hero by The Heavy (not the actual film clip). Both songs start slow, but their funky alt-rock-country grooves will have you by the end. Enjoy!

Bass tabs for Short Change Hero are rarer than epic loots, and I dunno what key guitarists are playing those ‘chords’ in but this sounds good to me. Get your bass out and lay down a groove! 🙂 If you’ve got suggestions, drop a comment!

The Heavy - Short Change Hero
As featured in: Borderlands 2

Bass tab: Ben Boyle  2012-10-05

Intro (no bass) until 1:24

Verse

   Db          AbB   Db                                              AbDb 
G|-----------------|-----------------|-----------------|-----------------|
D|-----------------|-----------------|-----------------|-----------------|
A|-4~----4-4~----2-|-4~----4-4~----2-|-4~----4-4~----2-|-4~----4-4~----4-|
E|-------------4---|-------------4---|-------------4---|-------------4---|
   1 & 2 & 3 & 4 &   1 & 2 & 3 & 4 &   1 & 2 & 3 & 4 &   1 & 2 & 3 & 4 &  

   B             Ab  Gb          AbB   Db
G|-----------------|-----------------|-----------------|-----------------|
D|-----------------|-----------------|-----------------|-----------------|
A|-2~--2~--2---2---|---------------2-|-4~----4-4~----2-|-4~----4-4~----2-|
E|-----------4---4-|-2-2-2-2-2-2-4---|-------------4---|-------------4---| x2
   1 & 2 & 3 & 4 &   1 & 2 & 3 & 4 &   1 & 2 & 3 & 4 &   1 & 2 & 3 & 4 &  

   Db          AbB   Db                                              AbDb 
G|-----------------|-----------------|-----------------|-----------------|
D|-----------------|-----------------|-----------------|-----------------|
A|-4~----4-4~----2-|-4~----4-4~----2-|-4~----4-4~----2-|-4~----4-4~----4-|
E|-------------4---|-------------4---|-------------4---|-------------4---|
   1 & 2 & 3 & 4 &   1 & 2 & 3 & 4 &   1 & 2 & 3 & 4 &   1 & 2 & 3 & 4 &  

   B             Ab  Gb          AbB   Db
G|-----------------|-----------------|-----------------|-----------------|
D|-----------------|-----------------|-----------------|-----------------|
A|-2~--2~--2-2-2---|---------------2-|-4~----4-4~----2-|-4~--------------|
E|---------------4-|-2-2-2-2-2-2-4---|-------------4---|-----------------|
   1 & 2 & 3 & 4 &   1 & 2 & 3 & 4 &   1 & 2 & 3 & 4 &   1 & 2 & 3 & 4 &  


Chorus “This ain’t no place for no hero…”
Same as the verse, give it a tad more punch! 🙂

   Db          AbB   Db                                              AbDb 
G|-----------------|-----------------|-----------------|-----------------|
D|-----------------|-----------------|-----------------|-----------------|
A|-4~----4-4~----2-|-4~----4-4~----2-|-4~----4-4~----2-|-4~----4-4~----4-|
E|-------------4---|-------------4---|-------------4---|-------------4---|
   1 & 2 & 3 & 4 &   1 & 2 & 3 & 4 &   1 & 2 & 3 & 4 &   1 & 2 & 3 & 4 &  

   B             Ab  Gb          AbB   Db
G|-----------------|-----------------|-----------------|-----------------|
D|-----------------|-----------------|-----------------|-----------------|
A|-2~--2~--2---2---|---------------2-|-4~--4-4~--4---2-|-4~--4-4~--4---2-|
E|-----------4---4-|-2-2-2-2-2-2-4---|-------------4---|-------------4---| x2
   1 & 2 & 3 & 4 &   1 & 2 & 3 & 4 &   1 & 2 & 3 & 4 &   1 & 2 & 3 & 4 &  


Bridge silent bass at 2:55 “every time I close my eyes…”
Bring back root notes, VERY softly, 3:31 (2 bars ahead of drummer)

   Db                
G|-----------------|-----------------|-----------------|-----------------|
D|-----------------|-----------------|-----------------|-----------------|
A|-4~--------------|-4~--------------|-4~--------------|-4~--------------|
E|-----------------|-----------------|-----------------|-----------------|
   1 & 2 & 3 & 4 &   1 & 2 & 3 & 4 &   1 & 2 & 3 & 4 &   1 & 2 & 3 & 4 &  

   B                 Gb                Db                            GbE
G|-----------------|-----------------|-----------------|-----------------|
D|-----------------|-----------------|-----------------|-------------4-2-|
A|-2~--------------|-----------------|-4~--------------|-4~--------------|
E|-----------------|-2~--------------|-----------------|-----------------|
   1 & 2 & 3 & 4 &   1 & 2 & 3 & 4 &   1 & 2 & 3 & 4 &   1 & 2 & 3 & 4 &  


Chorus x2

Outro

   Db          AbB   Db                                              AbDb 
G|-----------------|-----------------|-----------------|-----------------|
D|-----------------|-----------------|-----------------|-----------------|
A|-4~--4-4~--4---2-|-4~--4-4~--4---2-|-4~--4-4~--4---2-|-4~--4-4~--4---4-|
E|-------------4---|-------------4---|-------------4---|-------------4---|
   1 & 2 & 3 & 4 &   1 & 2 & 3 & 4 &   1 & 2 & 3 & 4 &   1 & 2 & 3 & 4 &  

   B                 Gb                Db
G|-----------------|-----------------|-----------------|-----------------|
D|-----------------|-----------------|-----------------|-----------------|
A|-2~----------2---|-----------------|-4~--------------|-4---------------|
E|---------------4-|-2~------------4-|-----------------|-----------------|
   1 & 2 & 3 & 4 &   1 & 2 & 3 & 4 &   1 & 2 & 3 & 4 &   1 & 2 & 3 & 4 &  


Enjoy!

Great song by The Heavy
Great choice by Gearbox

~:)

Friday night—it’s all about winning. Music. Loots. Bazillions of loots.

Want more? Check out:

Advertisements